Okebiz Video Search



Title:Nirvana - Lithium guitar cover
Duration:01:12
Viewed:23,069
Published:23-03-2016
Source:Youtube

Nirvana - Lithium guitar cover
SUBSCRIBE - http://bit.ly/1YzT9us

TABS

MAIN RIFF/CHORUS
D|-------------------------------------------------------------------------------------------------------------------------------------------------------------------------------------------------|
A|-------------------------------------------------------------------------------------------------------------------------------------------------------------------------------------------------|
F|-------------------------------------------------6--------6----6---------------------------5----5----5----5----7----7----7----7----4----4----4----4----7----7----7----7-------|
C|-----2--------2----2----6--------6----6----6--------6----6----7--------7----7----5----5----5----5----7----7----7----7----4----4----4----4----7----7----7----7-------|
G|-----2--------2----2----6--------6----6----4--------4----4----7--------7----7----3----3----3----3----5----5----5----5----2----2----2----2----5----5----5----5-------|
D|-----0--------0----0----4--------4----4--------------------------5--------5----5--------------------------------------------------------------------------------------------------------|

MIDDLE
D|------------------------------------------------------------------------------------------------|------------------------------------------------------------------------------------------------------------------|
A|------------------------------------------------------------------------------------------------|------------------------------------------------------------------------------------------------------------------|
F|------------------------------5--------5----5---------------------------5--------5---5----|----7----7----7----7----7----7----7---7----4----4----4----4----4-------------------------------------|
C|--------7--------7----7----5--------5----5----7--------7----7----5--------5---5----|----7----7----7----7----7----7----7----7----4----4----4----4----4------------------------------------|
G|--------7--------7----7----3--------3----3----7--------7----7----3--------3---3----|----5----5----5----5----5----5----5----5----2----2----2----2----2--------------------2---------------|
D|--------5--------5----5--------------------------5--------5----5-------------------------|-----------------------------------------------------------------------------------0----3b4----0---------------|

SHARE TO YOUR FRIENDS


Download Server 1


DOWNLOAD MP4

Download Server 2


DOWNLOAD MP4

Alternative Download :



SPONSORED
Loading...
RELATED VIDEOS
Nirvana - Lithium guitar cover Nirvana - Lithium guitar cover
04:19 | 54,755
Nirvana - Lithium (Live And Loud, Seattle / 1993) Nirvana - Lithium (Live And Loud, Seattle / 1993)
04:14 | 358,942
Why Kurt Cobain is a genius Why Kurt Cobain is a genius
14:23 | 112,709
Nirvana - Rape Me guitar cover Nirvana - Rape Me guitar cover
01:58 | 65,047
This Should Be Everyone’s First Guitar Lesson This Should Be Everyone’s First Guitar Lesson
28:53 | 648,999
Nirvana - Lithium (Live at Reading 1992) [Official Video] Nirvana - Lithium (Live at Reading 1992) [Offic...
04:28 | 15,821,677
21 Legendary Bass Intros 21 Legendary Bass Intros
06:11 | 176,404
Nirvana - About a Girl guitar cover Nirvana - About a Girl guitar cover
01:27 | 17,314


coinpayu